Artist: Twiddle
Song: Wildfire
Transcribed By: the Space Fish (E-mail: theSpaceFish@uTwiddle.net)

Standard Tuning (e B G D A E) - No Capo

(/) Slide Up  (\) Slide Down  (h) Hammer On  (p) Pull Off  (b) Bend (r) Release (v) Vibrato
--------------------------------------------------------------------------------------------|

Chords Used:

    A     Dm     Am      C
E|--0------1-------------0----
B|--2------3------1------1----
G|--2------2------2------0----
D|--2------0------2------2----
A|--0-------------0------3----
E|----------------------------


Chord Run 1:

E|----------
B|--1---1---
G|--2---0---
D|--2---2---
A|--0-2-3---
E|----------

Intro/main Riff:

E|---------------------------------------------------------
B|--10--10------------------6--8--8--5--5------------------
G|----------10--10--7--5h7-----------------5-------5--5h7--
D|--------------------------------------------5h7----------
A|---------------------------------------------------------
E|---------------------------------------------------------

Micky does little fills inbetween the riffs so feel free to make up your own!


Verse:
Dm          C
Clouds cover up the moon

            Dm
Hiding in the light
    C
We used to see it.....




Chorus:
Dm                          C
I'm looking to start a wildfire
                            Dm
I'm looking to start the storm   
Let the rain ease the pain

C
Know the pain is soul

Dm
let it cause a flood

C
and the past cant be undone

Dm
let the water run…

C
let the water run

Break:
Am      (chord run 1)    C     F
seeing life behind these blurry eyes
Am      (chord run 1)    C     F
sometimes compromise my state of mind
Am      (chord run 1)    C             F
and the futures in front but I fall behind
Am (chord run 1) C     F
ya I fall behind