Artist: Twiddle
Song: The Catapillar Tab
Transcribed By: The Space Fish (thespacefish@utwiddle.net)

Standard Tuning (e B G D A E) - No Capo

(/) Slide Up  (\) Slide Down  (h) Hammer On  (p) Pull Off  (b) Bend (r) Release (v) Vibrato
--------------------------------------------------------------------------------------------|

The Catapillar


Chords Used:

      G1    G2     C     Am    C    Am
E|-----3-----------8-----5-----0-----0---|
B|-----3-----6-----8-----5-----1-----1---|
G|-----4-----7-----9-----5-----0-----2---|
D|-----5-----9----10-----7-----2-----2---|
A|-----5----10----10-----------3-----0---|
E|-----3-----------8---------------------|

Intro


E|---------8------------------------------------------------------------8-6-5-5h6-5---5-5h6p5----------|
B|-------6-----------------------------------------------------6-5------------------6---------6-6\8----|
G|-----5---------------------------------------------5h7-5h7-5-----7-----------------------------------|
D|---7-------------8\10-8-7-7h8-7-5-7-7h8p7---5--------------------------------------------------------|
A|-8----------------------------------------8----------------------------------------------------------|
E|-----------8-----------------------------------------------------------------------------------------|


E|---------5----8\10--8\10--8\10--8-6-5------------5---5h6-5h6-5h6-5-----8\10-8-8-10-12-|
B|---6-6-8------------------------------6----6-6-8-------------------8-6----------------|
G|--------------------------------------------------------------------------------------|
D|--------------------------------------------------------------------------------------|
A|--------------------------------------------------------------------------------------|
E|--------------------------------------------------------------------------------------|

E|-12\13-12\13-12\13-12-10-12-10\12-10----------10---------10---------------------------|
B|-------------------------------------------10----------10---13-11-10--8--6--5--3------|
G|-------------------------------------10-12-------10-12--------------------------------|
D|--------------------------------------------------------------------------------------|
A|--------------------------------------------------------------------------------------|
E|--------------------------------------------------------------------------------------|

-The first time you go through this after you hit the last note you just go back to the beinging.
-The second time you end, after the last note strum the G1 chord which is just  G major bar chord.


Main Riff8
                                                                Am shape                              ****
E|-----------7--8--7--5-----5-------------------------------------------------------------------------|
B|-----------------------8-----8--5--8p5-----5-------------------5-----------5-----5h6--5-----5h6--5--|
G|----------------------------------------7-----7p5-----5-----5-----5-----5-----5----------5----------|
D|---------------------------------------------------7-----7-----------7------------------------------|
A|----------------------------------------------------------------------------------------------------|
E|--3--5--7-------------------------------------------------------------------------------------------|

*** Listen to the recording for this part, you're playing the notes already in the Am shape and then you simply 
blend the picking into the Am chord. Micky probably strums this part by holding his pick slightly sideways so 
that when he is coming down the attack of the pick is a little more vertical. Helps give that 'roll' effect similiar to sweep picking. 

-After doin the sweepin Am chord the next two chords are: C C G2 G2 G2 G2


There is obviously a lot more to this song but this is enough to get you started. If you have an corrections 
please let me know, I know the main riff could certainly use some minor tweaks to make it perfect. thespacefish@utwiddle.net