Artist: Twiddle
Song: Syncopated Healing
Transcribed By: The Space Fish (theSpaceFish@uTwiddle.net)

Standard Tuning (e B G D A E) - No Capo

(/) Slide Up  (\) Slide Down  (h) Hammer On  (p) Pull Off  (b) Bend (r) Release (v) Vibrato
--------------------------------------------------------------------------------------------|

Chords Used:

      Ab     Bb    Eb    Cm     Gm7    
E|-----4-----6-----6-----8------10--------|
B|-----4-----6-----8-----8------11--------|
G|-----5-----7-----8-----8------10--------|
D|-----6-----8-----8-----10-----12--------|
A|-----6-----8-----6-----10-----10--------|
E|-----4-----6-----------8----------------|



Intro riff:
       
E|-------------------------8---------6---------------8---------------------------8---------10*----|
B|--------9----------------------------------------------------9----------------------------------|
G|----/8------------8p7h8-----8p7h8-----------8p7h8-----8p7h8-------------8p7h8-----8p7h8---------|
D|------------------------------------------------------------------------------------------------|
A|------------------------------------------------------------------------------------------------|
E|------------------------------------------------------------------------------------------------|

*Sometimes this resolves to '6' instead of '10' - play around with it and listen to how Meebs plays it to get the timing down.

Intro/Verse/Pre-Chorus (listening to a recording for the tempo):

Ab(x5)   Eb(x2)  Bb(x5) Eb(x2) Ab(x5) Eb(x2) Bb(x5)



Chorus:

Ab                             
It's the weight of the world pulling down on your life
Bb
When it feels like you're waiting pacing trying to survive
Cm
There's a moment when you start thinking to yourself
Gm7
I gotta get over this I need some help
Ab
Shout it out like the rhythm in the sun
Bb
Let the good vibrations keep you rollin' on strong
Cm
Relax and dream one day at a time
Gm7
Let the beauty of the music start to heal your life

Ab   Eb       Bb       Eb       Ab
    Heal your life
    
    
Jam Progression is simply: Ab(x2) -> Bb(x2)