Artist: Twiddle
Song: Subconscious Prelude
Transcribed By: the Space Fish (E-mail: theSpaceFish@uTwiddle.net)

Standard Tuning (e B G D A E) - No Capo

(/) Slide Up  (\) Slide Down  (h) Hammer On  (p) Pull Off  (b) Bend (r) Release (v) Vibrato
--------------------------------------------------------------------------------------------|

Chords Used:


      Em    E7* G7*    C     D     G
E|-----0-----0---1-----0-----3-----3-----
B|-----0-----0---0-----1-----2-----3-----
G|-----0-----1---0-----0-----3-----0-----
D|-----2-----0---0-----2-----0-----0-----
A|-----2-----2---2-----3-----------2-----
E|-----0-----0---3-----------------3-----

(*) This may be better played as a G7 instead of an E7

Intro/Main Riff:

E|--------------------------------------------------
B|--8--10/12--10--8--10/12--10--8--10/12--10--8--8--
G|--------------------------------------------------
D|--------------------------------------------------
A|--------------------------------------------------
E|--------------------------------------------------

E|--------------------------------------------------
B|-----10/12--10--8--10/12--10--8--10/12--10--7--7--
G|--9-----------------------------------------------
D|--------------------------------------------------
A|--------------------------------------------------
E|--------------------------------------------------

E|----------------------------------------------------
B|--8--10/12--10--8--10/12--10--8--10/12--10--8h10p8--
G|----------------------------------------------------
D|----------------------------------------------------
A|----------------------------------------------------
E|----------------------------------------------------

E|----------------------------------------------------
B|-----10/12--10--8-----10/12--10--10-----------------
G|--9----------------9--------------------------------
D|----------------------------------------------------
A|----------------------------------------------------
E|----------------------------------------------------


Verse:

Em                              C        
I’m turning and churning the thoughts in my head
         G                        D
I’m twisting and wrapping the sheets in my bed
Em                                 C 
There’s something inside something I can’t contest
       G                    D
Still no sleep is coming I can't seem to rest
   Em                              C
It whirls through the wind like a small blade of grass
    G                        D
Then lands in a creek with an invisible splash
Em                                 C
It floats down the stream like a paper made raft
G                        D
On board is my nest my thoughts have not hatched


Chorus:
Em                                  C
I don’t wanna say where I'm going now
                                  G
Choose to ignore all who tell me how
     E7(G7)               C      
My eyes keep closing why can’t I just rest my mind
       G                       D
And replace all the rambles lost in time



[[[[[[   Same progression for the rest of the song - enjoy!    ~the Space Fish ]]]]