Artist: Twiddle
Song: Jamflowman
Transcribed By: The Space Fish (theSpaceFish@uTwiddle.net)

Standard Tuning (e B G D A E) - No Capo

Tip: I play the intro/verse chords with 4 fingers (my pointer finger on the root E-string and my middle, ring and pinky on the D G and B strings respectively)
rather than barring the entire thing with one finger which is more traditionally done for a jazz chord like this. 
I believe Micky uses the four finger method. 

(/) Slide Up  (\) Slide Down  (h) Hammer On  (p) Pull Off  (b) Bend (r) Release (v) Vibrato
--------------------------------------------------------------------------------------------|

Chords used:

   F#m         Am7         Bm7          C#m7
E|--------------------------------------------------
B|--10----------5-----------7------------9----------
G|--11----------5-----------7------------9----------
D|--11----------5-----------7------------9----------
A|--9-----------x-----------x------------x----------
E|--------------5-----------7------------9----------


Intro/Verse:

    (x2)    (x2)  (x3)   (x1) 
E|------------------------------
B|--9h10----7/9----5/7---7/9----
G|--9h11----7/9----5/7---7/9----
D|--9h11----7/9----5/7---7/9----
A|--9-9-----x-x----x-x---x-x----
E|----------7/9----5/7---7/9----



Chorus:
F#m
Jamflowman won't you give me that sound

C#m7
Make my body move all around

Bm7
Twist it up and blaze it down

C#m7
Pass it back and forth spin it 'round and 'round...


Little solo riff:

E|------------------------------------------------------------------------------------------
B|--14--14--12----------14--12------14--14--12----------------------------------------------
G|--------------14--11----------14--------------14--11--11------11--------------------------
D|----------------------------------------------------------14------------------------------
A|------------------------------------------------------------------------------------------
E|------------------------------------------------------------------------------------------


E|--------------------------12--------------------------------------
B|--14--14--12----------14------14--14--14--12----------------------
G|--------------14--11--------------------------14--11--11------11--
D|----------------------------------------------------------14------
A|------------------------------------------------------------------
E|------------------------------------------------------------------