Artist: Twiddle
Song: Indigo Trigger
Transcribed By: the Space Fish (e-mail: TheSpaceFish@utwiddle.net)

Standard Tuning (e B G D A E) - No Capo

(/) Slide Up  (\) Slide Down  (h) Hammer On  (p) Pull Off  (b) Bend (r) Release (v) Vibrato
--------------------------------------------------------------------------------------------|

Chords Used:

      Em     D   Dsus4   A     G    G/F#  G7    C7    A7    D7     Bm
E|-----0-----2-----3-----------3-----3-----3-----3-----5-----5-----2-----
B|-----0-----3-----3-----2-----3-----3-----3-----5-----5-----7-----3-----
G|-----0-----2-----2-----2-----0-----0-----4-----3-----6-----5-----4-----
D|-----2-----0-----0-----2-----0-----0-----3-----5-----5-----7-----4-----
A|-----2-----------------0-----2-----0-----5-----3-----7-----5-----2-----
E|-----0-----------------------3-----2-----3-----------5-----------------


Intro
         Em     D->Dsus4      A               G      G/F#
E|-------0--0-----2h3---2h3-------------------3-------3---|
B|-------0--0-----3-3---3-3---2---2-----------3-------3---|
G|-------0--0-----2-2---2-2---2---2-----------0-------0---|
D|-------2--2-----0-0---0-0---2---2-----------0-------0---|
A|-------2--2-----------------0---0-----------2-------0---|
E|---0-0-0--0-----------------------------3---3---2---2---|

Verse:

          Em             G7           C7      A7    D7
E|--------0--0-----------3--3--------3--3-----5-----5--
B|--------0--0-----------3--3--------5--5-----5-----7--
G|--------2--0-----------4--4--------3--3-----6-----5--
D|--------2--2-----------3--3--------5--5-----5-----7--
A|--------2--2-----------5--5--3--3--3--3-----7--5--5--
E|--0--0--0--0--2--3--3--3--3--------------5--5--------

Chorus:

Em      Bm             D
Yeah at last I'm gonna shout it out loud
G         A              Em
Everybody knows what I'm talking about
Bm                  D       G       A
Yea you know what’s good so keep on listening
Em                 Bm                  D
On the side of the road flew two metal birds   
                      G
Three lights spinning bright
        A                Em
Hopping stars out of the shadow land
Bm                    D 
Yeah you know they're waiting and listening
   G    A  
To what you're thinking

Back to Intro Riff....

Enjoy!

~The Space Fish~