Artist: Twiddle
Song: Grandpa Fox
Transcribed By: the Space Fish (e-mail: TheSpaceFish@utwiddle.net)

Standard Tuning (e B G D A E) - No Capo

(/) Slide Up  (\) Slide Down  (h) Hammer On  (p) Pull Off  (b) Bend (r) Release (v) Vibrato
--------------------------------------------------------------------------------------------|

Part 1
E|-------------------------------------------------|
B|-------------------------------------------------|
G|-------------------------------------------------|
D|-------------------------------------------3h4h5-|
A|-------------3h4h5-3h4h5-------------3h4h5-------|
E|-3h4h5-3h4h5-------------3h4h5-3h4h5-------------|

Part 2:

E|-----------------------------------------|
B|-----------------------------------------|
G|-----------------------------------------|
D|-8p7p5-8p7p5---------8p7p5-8p7p5---------|
A|-------------8p7p5h8-------------8p7p5h8-|
E|-----------------------------------------|

Part 3:

E|-------------------|----------------------------------|
B|-------------------|----------------------------------|
G|-------------------|----------------------------------|
D|-8---5-------------|----------------------------------|
A|---8---5-6-8-6-5-6-|--5p4p3---3-5p4p3---3-5p4p3-------|
E|-------------------|--------6---------6---------6-5-3-|




Part 4:

E|----------------------------------------------------------------------------------------------|
B|----------------------------------------------------------------------------------------------|
G|----------------------------------------------------------------------------------------------|
D|----------------------------------------------------------------------------------------------|
A|--------3--5--6--5--3-------3-5-6-5-3---3---------------3-3-5-6-5-3-------3-5-6-5-3---3-------|
E|-3--5--6--------------3-5-6-----------6---6-5-3---3-5-6-------------3-5-6-----------6---6-5-3-|

Part 5:

E|-----------------------------------------------------------|
B|-----------------------------------------------------------|
G|-----------------------------------------------------------|
D|-----------------------------------------------------------|
A|-------------3-3-5-5-6-6-5-5-3-3-------3-5-6-5-3---3-------|
E|-3-3-5-5-6-6---------------------3-5-6-----------6---6-5-3-|

Play Order:

Intro:
Part 1 (x2) Part 2 (x1) Part 1 (x1) Part 3 (x2)

Part 4 (x1) Part 5 (x1)

There is more but this is enough to get you started. I'll add to this as I learn it. If you have anything to contribute him me up! E-mail: theSpaceFish@uTwiddle.net