Artist: Twiddle
Song: The FRENDS Theme
Transcribed By: the Space Fish (E-mail: theSpaceFish@uTwiddle.net)

Standard Tuning (e B G D A E) - No Capo

(/) Slide Up  (\) Slide Down  (h) Hammer On  (p) Pull Off  (b) Bend (r) Release (v) Vibrato
--------------------------------------------------------------------------------------------|

Chords Used:


      Am     F     C    C/B
E|-----0-----1-----0-----0-----|
B|-----1-----1-----1-----1-----|
G|-----2-----2-----0-----0-----|
D|-----2-----3-----2-----0-----|
A|-----0-----3-----3-----2-----|
E|-----------------------------|


Little Run from C back to begining of the rhythm - you could just play the notes individually like shown below:

        (Riff 1)
E|---0-------------------0---|
B|---1-------------------1---|
G|---0-------------------2---|
D|---2-------------------2---|
A|---3--(3---2---3---2)--0---|
E|---------------------------|

Or you could play them as chords:

        (Riff 1)
E|---0---0---0---0---0---|
B|---1---1---1---1---1---|
G|---0---0---0---0---2---|
D|---2---0---2---0---2---|
A|---3---2---3---2---0---|
E|-----------------------|

The main point is that you are hitting that bass-line on the A-string which helps move the melody in between chord changes. 

Also sometimes its simply a run down from C to Am:

    (Riff 2)
E|---0---0---0-----|
B|---1---1---1-----|
G|---0---0---2-----|
D|---2---0---2-----|
A|---3---2---0-----|
E|-----------------|

Jamtronica Intro:

     (x8)              (x8)             (x8)            (x8)
E|---------------|---------------|-----------------|--------------------|
B|---------------|---------------|-----------------|--------------------|
G|---------------|---------------|-----------------|--------------------|
D|----------5h7--|----------7h9--|-----------8h10--|-------------10h12--|
A|-----5h7-------|-----7h9-------|-----8h10--------|------10h12---------|
E|--5------------|--7------------|--8--------------|--10----------------|

The jamtronica intro part is played twice and then Micky starts doing the crazy trills which I won't tab out. 


Then after that they end on a E note which gets played a few times then into the
strumming portion of the song:

                                                Am       F       C     (Riff 1)    Am    
E|-------------------|-------------------------0--0--0--1--1--0--0--0--0--0--0--0--0--|
B|-------------------|-------------------------1--1--1--1--1--1--1--1--1--1--1--1--1--|
G|-------------------|-------------------------2--2--2--2--2--0--0--0--0--0--0--0--2--|
D|-------------------|----------5--------------2--2--2--3--3--2--2--2--2--0--2--0--2--|
A|--7--7--7--7--7--7-|-7--5--7-----7--5--3--2--0--0--0--3--3--3--3--3--3--2--3--2--0--|
E|-------------------|----------------------------------------------------------------|



Am     F       C      (Riff 1)
Am     F       C      (Riff 1)


Micky's Verse:

          Am                F                                C
I said the snow falls and it hits you like a soul refreshing breeze through
 (Riff 1)                        Am
You wanna get your kicks up on the mountain
 F                              C
release your daily burden like a fountain
(Riff 1)                    Am
Sprayin' powder up into the air when
    F                               C
You notice that your body feels the breeze to
(Riff 1)                          Am
Start to twist and turn above the ground when
    F                                 C    
You hear the crowd screamin' out your name


Chorus:
 
(Riff 2)       Am 
There ain't no I in Frends
       F
And we ride until we die
C
Riding breathing shredding freely brothers blood for life
(Riff 2)   Am              F
There's no denying when we roll up on the spot
    C
The musics hot the drinks are bought the fun it never stops
(Riff 2)Am 
Aint No I in Frends
       F
And we ride until we die
C
Riding breathing shredding freely brothers blood for life
(Riff 2)   Am              F
There's no denying when we roll up on the spot
C     (Riff 1)
Woh oh Woh oh oh . .

(Whh oh oh part)
Am    F    C    (Riff 1)
Am    F    C    (Riff 1)


Jake's Verse:

Am
Bring out the best in me
F
Bring out the best in you
C
Its always better to live together with the Frendly crew
Am
So let your mind run free
F
Allow your soul to bloom
C
Imaginations friends and patience makes the dream come true
Am                        F  
Live and breathe and trust each other when we got the blues
C
Livin’ Frendly day by day is all you got to do
Am                        F
Cause theres no I in me and theres no I in you
C                       
So sing along enjoy the song and scream


Chorus:

(Riff 2)       Am 
There ain't no I in Frends
       F
And we ride until we die
C
Riding breathing shredding freely brothers blood for life
(Riff 2)   Am              F
There's no denying when we roll up on the spot
    C
The musics hot the drinks are bought the fun it never stops
(Riff 2)Am 
Aint No I in Frends
       F
And we ride until we die
C
Riding breathing shredding freely brothers blood for life
(Riff 2)   Am              F
There's no denying when we roll up on the spot
C     (Riff 1)
Woh oh Woh oh oh . .