Artist: Twiddle
Song: Daydream Farmer
Transcribed By: the Space Fish (e-mail: TheSpaceFish@utwiddle.net)

Standard Tuning (e B G D A E) - No Capo

(/) Slide Up  (\) Slide Down  (h) Hammer On  (p) Pull Off  (b) Bend (r) Release (v) Vibrato
--------------------------------------------------------------------------------------------|

Be There


Chords Used:

Intro/Verses
        Bb   D6/B   Cm7     F     Dm      G      C7      Dm7
E|------6--------------------------5-------------------------|
B|------6------7-----8------6------6------8-------8------10--|
G|------7------7-----8------5------7------7-------9------10--|
D|------8------X-----8------7------7------9-------8------10--|
A|------8------5-----X------8------5-----10-------X------X---|
E|------6------7-----8----------------------------8------10--|

Chorus:
       Bb     Dm     D#  C7omit3  Fmaj*
E|-----6------5-------------------8---|
B|-----6------6------8------8-----10--|
G|-----7------7------X------X-----10--|
D|-----8------7------8------8-----10--|
A|-----8------5------6------X---------|
E|-----6--------------------8---------|

*Note: If it's easier (and sometimes I even think it sounds fuller) you can play the root note on the A string (i.e. play "8" - F note - on the A-string) instead of ommitting it.  


Intro
Bb        D6/B     Cm7        F      Dm       G      C7       Dm7
I like it when the sun shines as I’m stepping out to start my waking day
Bb         D6/B    Cm7     F          Dm       G      C7    Dm7
I hear the bacon sizzling smells that throw me back into my memory
Bb         D6/B    Cm7     F        Dm   G     C7     Dm7
I tend to daydream constantly cause reality is far to dull for me
Bb         D6/B       Cm7    F      Dm         G         C7     Dm7
It seems that all the caring giving loving and livin could work against the grain

Chorus (reggae strum):

Bb             Dm       D#      C7omit3  Fmaj
Can’t stop the sky from falling down
Bb              Dm                    D#        C7omit3  Fmaj
It’s the energy inside of me floating about
Bb               Dm                 D#      C7omit3   Fmaj
Live to love and let go while we're still around
Bb                     Dm                        D#      C7omit3  Fmaj
Keep our earth in your soul and your sole to the ground


Vocal Chorus Solo thing:
E|----------------------13--10-----10--10------------------------|------------------------|
B|--11--11--11--11--11---------------------13-----11-------------|----------------11------|
G|-------------------------------------------------------12--10--|------10h12p10------12--|
D|---------------------------------------------------------------|--12--------------------|
A|---------------------------------------------------------------|------------------------|
E|---------------------------------------------------------------|------------------------|

Stave 2:

E|--------------------------------------------------|
B|--11--11--11--13--11--10--10--10--10--11--10------|
G|----------------------------------------------12--|
D|--------------------------------------------------|
A|--------------------------------------------------|
E|--------------------------------------------------|

There is a ltitle run after this that I haven't tabbed out. 

This continues for the rest of the song - enjoy! ~The Space Fish~