Artist: Twiddle
Song: Beethoven and Greene
Transcribed By: the Space Fish (e-mail: TheSpaceFish@utwiddle.net)

Standard Tuning (e B G D A E) - No Capo

(/) Slide Up  (\) Slide Down  (h) Hammer On  (p) Pull Off  (b) Bend (X) Mute (v) Vibrato
--------------------------------------------------------------------------------------------|


Chords Used:

      Em9     Em9/F#  Em9/C#  A/F#   F#     B     E     A    F#m      G#m    C#
E|------------------------------------------------7---------------------------------|
B|-----9--------9--------9-----7-----11-----7-----9-----5-----10------12------9-----|
G|-----X--------X--------X-----X------X-----8-----9-----6-----11-------X-----10-----|
D|-----9--------9--------9-----7-----11-----9-----9-----7-----11------13-----11-----|
A|-----7--------9--------X-----X------9------------------------9------11------------|
E|-----------------------9-----5----------------------------------------------------|

RIFF #1
E|-------------------------|
B|---7---7---7-/-9-\-7-----|
G|---X---X---X---X---X-----|
D|---7---7---7---9-\-7-----|
A|---X---X---X-------------|
E|---5---5---5-------------|

RIFF #2
E|-----15-----13-----12----|
B|-----15-----13-----12----|
G|-----16-----13-----13----|
D|-------------------------|
A|-------------------------|
E|-------------------------|


------------------------------------------------------------------------------------

Intro:

E|----------19--17--16-------------------------------------
B|------17--------------19--17--16--17--16--17--19--19b20--
G|--16-----------------------------------------------------
D|---------------------------------------------------------
A|---------------------------------------------------------
E|---------------------------------------------------------

                                            
E|----------19--17--16----------------------16--19b21--19--
B|------17--------------19--17--16--17--19-----------------
G|--16-----------------------------------------------------
D|---------------------------------------------------------
A|---------------------------------------------------------
E|---------------------------------------------------------


E|----------19--17--16------------------------------|
B|------17--------------19--17--16--16--14--12--12--|
G|--16----------------------------------------------|
D|--------------------------------------------------|
A|--------------------------------------------------|
E|--------------------------------------------------|

Verse 1:

Em9              Em9/F#       
Wet slate scraping up against your sneaker bottom
Em9/C#                 A/F#                 RIFF #1
Kick a pebble watch it tumble down the road forgotten
Em9                      Em9/F#       
Having only what you have and having really nothing
Em9/C#                 A/F#           RIFF #1
Makes an easier escape for those who do not listen
Em9                   Em9/F#       
Catch a train rolling fast without a destination
Em9/C#                 A/F#                  RIFF #1
The early morning sun is calling this must be your station
Em9                   Em9/F#       
Stepping off the dock the colors they all repositioned
Em9/C#                 A/F#                       RIFF #1
The grass was pink the trees were blue the sky to bright for vision

Pre-Chorus:

F#                                                   
Your life was sold the road was cold you did not know 
G#m                             C#
If you could go around avoiding all your past doubts
F#               
And even though you kept emotion overflowing 
G#m                                      RIFF #2
Without knowing where you’re going just wake up and hope
F#       
When all your cares and dreams are sucked up like a bad disease 
G#m                                  C#
You wait and see your future needs a little sunshine
F#                                              
A better place to end your days when there’s no way to see 
G#m                           RIFF #2
the haze that makes you wanna pick up and go
 
Verse 2:

Em9                 Em9/F# 
A cool breeze makes you think about the situation
Em9/C#                   A/F#         RIFF #1
Walking forwards moving backwards in a celebration
Em9                 Em9/F#
Staring blankly at a gate that just won’t seem to open
Em9/C#                   A/F#               RIFF #1
Beyond its doors there lie the beaches of a golden ocean
Em9                       Em9/F#
Puff a cloud of dust starts spelling out the combination
Em9/C#           A/F#                     RIFF #1
Pick up a rock give it a knock and say the incantation
Em9                       Em9/F#
Twiddle hitch jiggle joggle jump squirm stir toss trifle dabble doodle you must relax and dream
Em9/C#           A/F#                     RIFF #1
Piddle fuddle babble gabble wiggle ramble fumble laze piddle fiddle enter Beethoven and Greene
 
Chorus:
F#m
Somewhere on the mountain
B
It’s said that there’s a potion
E
That makes you truly happy
A
And infinite in wisdom
F#m
It make you shine as bright as the sun do shine
B
Keep you life doing right and your mind being kind
E
If your heart is true and your heart is pure then this wont undue
A
The potion will endure in you (X3)

RIFF #3
E|--9--9--9------------------|---------9--9--9------------------|
B|-----------12--12--12--10--|------------------12--12--12--10--|
G|---------------------------|--9--11---------------------------|
D|---------------------------|----------------------------------|
A|---------------------------|----------------------------------|
E|---------------------------|----------------------------------|

E|---------9--12--12p10p9------12/14--12------9--12--12p10p9------12/14--12--|
B|-------------------------10-------------10------------------10-------------|
G|--9--11--------------------------------------------------------------------|
D|---------------------------------------------------------------------------|
A|---------------------------------------------------------------------------|
E|---------------------------------------------------------------------------|

E|--9--9--9--------------9---------------------9--9--9--------------9----------|
B|-----------12--12--12-----12--10---------10-----------12--12--12-----12--10--|
G|----------------------------------9--11--------------------------------------|
D|-----------------------------------------------------------------------------|
A|-----------------------------------------------------------------------------|
E|-----------------------------------------------------------------------------|

E|----------------------------------------------------|------------------9--12--12p10p9------12/14--12--|
B|--10--10--10--10p9---------10--10--10--10p9---------|--10--10--10--10------------------10-------------|
G|--------------------11--9--------------------11--9--|-------------------------------------------------|
D|----------------------------------------------------|-------------------------------------------------|
A|----------------------------------------------------|-------------------------------------------------|
E|----------------------------------------------------|-------------------------------------------------|



There are some more instrumental parts that I may tab out later but for now this is the jist of the song.

Enjoy! ~The Space Fish~