Artist: Twiddle
Song: Apples
Transcribed By: the Space Fish (e-mail: TheSpaceFish@utwiddle.net)

Standard Tuning (e B G D A E) - No Capo

(/) Slide Up  (\) Slide Down  (h) Hammer On  (p) Pull Off  (b) Bend (X) Mute (v) Vibrato
--------------------------------------------------------------------------------------------|


Chords Used:

       A     A2   C#m2 C#m     C    Bm     E     D
E|-----------------------------------2-----0-----0------|
B|-----5-----5-----5----5------5-----3-----0-----10-----|
G|-----6-----6-----6----6------5-----4-----1-----11-----|
D|-----7-----7-----6----6------5-----4-----2-----12-----|
A|-----0----------------0------------2-----2-----0------|
E|-----------------------------------------0------------|

The chords A/A2 and C#m/C#m2 are basically the same chords except the ones with "2" are to be played
without the open A string.

Intro/verse riff:
   A2        C#m2        C         C#m2
E|----------------------------------------|
B|-5-5-X-X-X-5-5-5-X-X-X-5-5-X-X-X-5-5-5--|
G|-6-6-X-X-X-6-6-6-X-X-X-5-5-X-X-X-6-6-6--|
D|-7-7-X-X-X-6-6-6-X-X-X-5-5-X-X-X-6-6-6--|
A|----------------------------------------|
E|----------------------------------------|


Just repeat this over and over again for the intro and verses. Listen to a recording to get the timing down. 

Chorus:
A           C#m                  Bm
I’m not crazy - you’re just mad. 
                E
Don’t freak out just be glad.
A           C#m                       Bm
Well I’m not crazy - you’re just mad. 
                E
Don’t freak out just be glad.
A                             D
‘Cause when you see the little apple creatures deep within your mind
A                D
Maybe you should take a little less next time
A
And it all comes seeping through
D
In a conscious point of view
A                     D
And they all scatter away